ISO-10303-21;
HEADER;
/* Generated by software containing ST-Developer
 * from STEP Tools, Inc. (www.steptools.com) 
 */

FILE_DESCRIPTION(
/* description */ (''),
/* implementation_level */ '2;1');

FILE_NAME(
/* name */ 'Colebot.step',
/* time_stamp */ '2023-12-15T20:13:02+01:00',
/* author */ (''),
/* organization */ (''),
/* preprocessor_version */ 'ST-DEVELOPER v20',
/* originating_system */ 'Autodesk Translation Framework v12.14.0.127',

/* authorisation */ '');

FILE_SCHEMA (('AUTOMOTIVE_DESIGN { 1 0 10303 214 3 1 1 }'));
ENDSEC;

DATA;
#10=MECHANICAL_DESIGN_GEOMETRIC_PRESENTATION_REPRESENTATION('',(#17),#671);
#11=ITEM_DEFINED_TRANSFORMATION($,$,#423,#448);
#12=(
REPRESENTATION_RELATIONSHIP($,$,#682,#681)
REPRESENTATION_RELATIONSHIP_WITH_TRANSFORMATION(#11)
SHAPE_REPRESENTATION_RELATIONSHIP()
);
#13=CONTEXT_DEPENDENT_SHAPE_REPRESENTATION(#12,#680);
#14=NEXT_ASSEMBLY_USAGE_OCCURRENCE('MaxFootprint:1','MaxFootprint:1',
'MaxFootprint:1',#684,#685,'MaxFootprint:1');
#15=SHAPE_REPRESENTATION_RELATIONSHIP('SRR','None',#682,#16);
#16=ADVANCED_BREP_SHAPE_REPRESENTATION('',(#18),#670);
#17=STYLED_ITEM('',(#695),#18);
#18=MANIFOLD_SOLID_BREP('Base',#409);
#19=FACE_BOUND('',#80,.T.);
#20=FACE_BOUND('',#81,.T.);
#21=FACE_BOUND('',#83,.T.);
#22=FACE_BOUND('',#84,.T.);
#23=PLANE('',#430);
#24=PLANE('',#431);
#25=PLANE('',#432);
#26=PLANE('',#433);
#27=PLANE('',#434);
#28=PLANE('',#435);
#29=PLANE('',#436);
#30=PLANE('',#437);
#31=PLANE('',#438);
#32=PLANE('',#439);
#33=PLANE('',#440);
#34=PLANE('',#441);
#35=PLANE('',#442);
#36=PLANE('',#443);
#37=PLANE('',#444);
#38=PLANE('',#445);
#39=PLANE('',#446);
#40=PLANE('',#447);
#41=FACE_OUTER_BOUND('',#61,.T.);
#42=FACE_OUTER_BOUND('',#62,.T.);
#43=FACE_OUTER_BOUND('',#63,.T.);
#44=FACE_OUTER_BOUND('',#64,.T.);
#45=FACE_OUTER_BOUND('',#65,.T.);
#46=FACE_OUTER_BOUND('',#66,.T.);
#47=FACE_OUTER_BOUND('',#67,.T.);
#48=FACE_OUTER_BOUND('',#68,.T.);
#49=FACE_OUTER_BOUND('',#69,.T.);
#50=FACE_OUTER_BOUND('',#70,.T.);
#51=FACE_OUTER_BOUND('',#71,.T.);
#52=FACE_OUTER_BOUND('',#72,.T.);
#53=FACE_OUTER_BOUND('',#73,.T.);
#54=FACE_OUTER_BOUND('',#74,.T.);
#55=FACE_OUTER_BOUND('',#75,.T.);
#56=FACE_OUTER_BOUND('',#76,.T.);
#57=FACE_OUTER_BOUND('',#77,.T.);
#58=FACE_OUTER_BOUND('',#78,.T.);
#59=FACE_OUTER_BOUND('',#79,.T.);
#60=FACE_OUTER_BOUND('',#82,.T.);
#61=EDGE_LOOP('',(#279,#280,#281,#282));
#62=EDGE_LOOP('',(#283,#284,#285,#286));
#63=EDGE_LOOP('',(#287,#288,#289,#290));
#64=EDGE_LOOP('',(#291,#292,#293,#294));
#65=EDGE_LOOP('',(#295,#296,#297,#298));
#66=EDGE_LOOP('',(#299,#300,#301,#302));
#67=EDGE_LOOP('',(#303,#304,#305,#306));
#68=EDGE_LOOP('',(#307,#308,#309,#310));
#69=EDGE_LOOP('',(#311,#312,#313,#314));
#70=EDGE_LOOP('',(#315,#316,#317,#318));
#71=EDGE_LOOP('',(#319,#320,#321,#322));
#72=EDGE_LOOP('',(#323,#324,#325,#326));
#73=EDGE_LOOP('',(#327,#328,#329,#330));
#74=EDGE_LOOP('',(#331,#332,#333,#334));
#75=EDGE_LOOP('',(#335,#336,#337,#338));
#76=EDGE_LOOP('',(#339,#340,#341,#342));
#77=EDGE_LOOP('',(#343,#344,#345,#346));
#78=EDGE_LOOP('',(#347,#348,#349,#350));
#79=EDGE_LOOP('',(#351,#352,#353,#354,#355,#356,#357,#358,#359,#360,#361,
#362,#363,#364,#365,#366));
#80=EDGE_LOOP('',(#367));
#81=EDGE_LOOP('',(#368));
#82=EDGE_LOOP('',(#369,#370,#371,#372,#373,#374,#375,#376,#377,#378,#379,
#380,#381,#382,#383,#384));
#83=EDGE_LOOP('',(#385));
#84=EDGE_LOOP('',(#386));
#85=LINE('',#559,#135);
#86=LINE('',#565,#136);
#87=LINE('',#570,#137);
#88=LINE('',#572,#138);
#89=LINE('',#574,#139);
#90=LINE('',#575,#140);
#91=LINE('',#579,#141);
#92=LINE('',#581,#142);
#93=LINE('',#583,#143);
#94=LINE('',#584,#144);
#95=LINE('',#587,#145);
#96=LINE('',#589,#146);
#97=LINE('',#590,#147);
#98=LINE('',#593,#148);
#99=LINE('',#595,#149);
#100=LINE('',#596,#150);
#101=LINE('',#599,#151);
#102=LINE('',#601,#152);
#103=LINE('',#602,#153);
#104=LINE('',#605,#154);
#105=LINE('',#607,#155);
#106=LINE('',#608,#156);
#107=LINE('',#610,#157);
#108=LINE('',#611,#158);
#109=LINE('',#615,#159);
#110=LINE('',#617,#160);
#111=LINE('',#619,#161);
#112=LINE('',#620,#162);
#113=LINE('',#622,#163);
#114=LINE('',#623,#164);
#115=LINE('',#626,#165);
#116=LINE('',#628,#166);
#117=LINE('',#629,#167);
#118=LINE('',#632,#168);
#119=LINE('',#634,#169);
#120=LINE('',#635,#170);
#121=LINE('',#638,#171);
#122=LINE('',#640,#172);
#123=LINE('',#641,#173);
#124=LINE('',#644,#174);
#125=LINE('',#646,#175);
#126=LINE('',#647,#176);
#127=LINE('',#650,#177);
#128=LINE('',#652,#178);
#129=LINE('',#653,#179);
#130=LINE('',#656,#180);
#131=LINE('',#658,#181);
#132=LINE('',#659,#182);
#133=LINE('',#661,#183);
#134=LINE('',#662,#184);
#135=VECTOR('',#457,1.15);
#136=VECTOR('',#464,1.15);
#137=VECTOR('',#469,10.);
#138=VECTOR('',#470,10.);
#139=VECTOR('',#471,10.);
#140=VECTOR('',#472,10.);
#141=VECTOR('',#475,10.);
#142=VECTOR('',#476,10.);
#143=VECTOR('',#477,10.);
#144=VECTOR('',#478,10.);
#145=VECTOR('',#481,10.);
#146=VECTOR('',#482,10.);
#147=VECTOR('',#483,10.);
#148=VECTOR('',#486,10.);
#149=VECTOR('',#487,10.);
#150=VECTOR('',#488,10.);
#151=VECTOR('',#491,10.);
#152=VECTOR('',#492,10.);
#153=VECTOR('',#493,10.);
#154=VECTOR('',#496,10.);
#155=VECTOR('',#497,10.);
#156=VECTOR('',#498,10.);
#157=VECTOR('',#501,10.);
#158=VECTOR('',#502,10.);
#159=VECTOR('',#505,10.);
#160=VECTOR('',#506,10.);
#161=VECTOR('',#507,10.);
#162=VECTOR('',#508,10.);
#163=VECTOR('',#511,10.);
#164=VECTOR('',#512,10.);
#165=VECTOR('',#515,10.);
#166=VECTOR('',#516,10.);
#167=VECTOR('',#517,10.);
#168=VECTOR('',#520,10.);
#169=VECTOR('',#521,10.);
#170=VECTOR('',#522,10.);
#171=VECTOR('',#525,10.);
#172=VECTOR('',#526,10.);
#173=VECTOR('',#527,10.);
#174=VECTOR('',#530,10.);
#175=VECTOR('',#531,10.);
#176=VECTOR('',#532,10.);
#177=VECTOR('',#535,10.);
#178=VECTOR('',#536,10.);
#179=VECTOR('',#537,10.);
#180=VECTOR('',#540,10.);
#181=VECTOR('',#541,10.);
#182=VECTOR('',#542,10.);
#183=VECTOR('',#545,10.);
#184=VECTOR('',#546,10.);
#185=CIRCLE('',#425,1.15);
#186=CIRCLE('',#426,1.15);
#187=CIRCLE('',#428,1.15);
#188=CIRCLE('',#429,1.15);
#189=VERTEX_POINT('',#556);
#190=VERTEX_POINT('',#558);
#191=VERTEX_POINT('',#562);
#192=VERTEX_POINT('',#564);
#193=VERTEX_POINT('',#568);
#194=VERTEX_POINT('',#569);
#195=VERTEX_POINT('',#571);
#196=VERTEX_POINT('',#573);
#197=VERTEX_POINT('',#577);
#198=VERTEX_POINT('',#578);
#199=VERTEX_POINT('',#580);
#200=VERTEX_POINT('',#582);
#201=VERTEX_POINT('',#586);
#202=VERTEX_POINT('',#588);
#203=VERTEX_POINT('',#592);
#204=VERTEX_POINT('',#594);
#205=VERTEX_POINT('',#598);
#206=VERTEX_POINT('',#600);
#207=VERTEX_POINT('',#604);
#208=VERTEX_POINT('',#606);
#209=VERTEX_POINT('',#613);
#210=VERTEX_POINT('',#614);
#211=VERTEX_POINT('',#616);
#212=VERTEX_POINT('',#618);
#213=VERTEX_POINT('',#625);
#214=VERTEX_POINT('',#627);
#215=VERTEX_POINT('',#631);
#216=VERTEX_POINT('',#633);
#217=VERTEX_POINT('',#637);
#218=VERTEX_POINT('',#639);
#219=VERTEX_POINT('',#643);
#220=VERTEX_POINT('',#645);
#221=VERTEX_POINT('',#649);
#222=VERTEX_POINT('',#651);
#223=VERTEX_POINT('',#655);
#224=VERTEX_POINT('',#657);
#225=EDGE_CURVE('',#189,#189,#185,.T.);
#226=EDGE_CURVE('',#189,#190,#85,.T.);
#227=EDGE_CURVE('',#190,#190,#186,.T.);
#228=EDGE_CURVE('',#191,#191,#187,.T.);
#229=EDGE_CURVE('',#191,#192,#86,.T.);
#230=EDGE_CURVE('',#192,#192,#188,.T.);
#231=EDGE_CURVE('',#193,#194,#87,.T.);
#232=EDGE_CURVE('',#194,#195,#88,.T.);
#233=EDGE_CURVE('',#195,#196,#89,.T.);
#234=EDGE_CURVE('',#193,#196,#90,.T.);
#235=EDGE_CURVE('',#197,#198,#91,.T.);
#236=EDGE_CURVE('',#198,#199,#92,.T.);
#237=EDGE_CURVE('',#199,#200,#93,.T.);
#238=EDGE_CURVE('',#197,#200,#94,.T.);
#239=EDGE_CURVE('',#201,#198,#95,.T.);
#240=EDGE_CURVE('',#201,#202,#96,.T.);
#241=EDGE_CURVE('',#202,#199,#97,.T.);
#242=EDGE_CURVE('',#203,#201,#98,.T.);
#243=EDGE_CURVE('',#203,#204,#99,.T.);
#244=EDGE_CURVE('',#204,#202,#100,.T.);
#245=EDGE_CURVE('',#205,#203,#101,.T.);
#246=EDGE_CURVE('',#205,#206,#102,.T.);
#247=EDGE_CURVE('',#206,#204,#103,.T.);
#248=EDGE_CURVE('',#205,#207,#104,.T.);
#249=EDGE_CURVE('',#207,#208,#105,.T.);
#250=EDGE_CURVE('',#208,#206,#106,.T.);
#251=EDGE_CURVE('',#193,#207,#107,.T.);
#252=EDGE_CURVE('',#196,#208,#108,.T.);
#253=EDGE_CURVE('',#209,#210,#109,.T.);
#254=EDGE_CURVE('',#209,#211,#110,.T.);
#255=EDGE_CURVE('',#212,#211,#111,.T.);
#256=EDGE_CURVE('',#210,#212,#112,.T.);
#257=EDGE_CURVE('',#194,#210,#113,.T.);
#258=EDGE_CURVE('',#212,#195,#114,.T.);
#259=EDGE_CURVE('',#213,#197,#115,.T.);
#260=EDGE_CURVE('',#214,#200,#116,.T.);
#261=EDGE_CURVE('',#213,#214,#117,.T.);
#262=EDGE_CURVE('',#213,#215,#118,.T.);
#263=EDGE_CURVE('',#216,#214,#119,.T.);
#264=EDGE_CURVE('',#215,#216,#120,.T.);
#265=EDGE_CURVE('',#217,#215,#121,.T.);
#266=EDGE_CURVE('',#218,#216,#122,.T.);
#267=EDGE_CURVE('',#217,#218,#123,.T.);
#268=EDGE_CURVE('',#219,#217,#124,.T.);
#269=EDGE_CURVE('',#220,#218,#125,.T.);
#270=EDGE_CURVE('',#219,#220,#126,.T.);
#271=EDGE_CURVE('',#221,#219,#127,.T.);
#272=EDGE_CURVE('',#222,#220,#128,.T.);
#273=EDGE_CURVE('',#221,#222,#129,.T.);
#274=EDGE_CURVE('',#221,#223,#130,.T.);
#275=EDGE_CURVE('',#224,#222,#131,.T.);
#276=EDGE_CURVE('',#223,#224,#132,.T.);
#277=EDGE_CURVE('',#209,#223,#133,.T.);
#278=EDGE_CURVE('',#211,#224,#134,.T.);
#279=ORIENTED_EDGE('',*,*,#225,.F.);
#280=ORIENTED_EDGE('',*,*,#226,.T.);
#281=ORIENTED_EDGE('',*,*,#227,.F.);
#282=ORIENTED_EDGE('',*,*,#226,.F.);
#283=ORIENTED_EDGE('',*,*,#228,.F.);
#284=ORIENTED_EDGE('',*,*,#229,.T.);
#285=ORIENTED_EDGE('',*,*,#230,.F.);
#286=ORIENTED_EDGE('',*,*,#229,.F.);
#287=ORIENTED_EDGE('',*,*,#231,.T.);
#288=ORIENTED_EDGE('',*,*,#232,.T.);
#289=ORIENTED_EDGE('',*,*,#233,.T.);
#290=ORIENTED_EDGE('',*,*,#234,.F.);
#291=ORIENTED_EDGE('',*,*,#235,.T.);
#292=ORIENTED_EDGE('',*,*,#236,.T.);
#293=ORIENTED_EDGE('',*,*,#237,.T.);
#294=ORIENTED_EDGE('',*,*,#238,.F.);
#295=ORIENTED_EDGE('',*,*,#239,.F.);
#296=ORIENTED_EDGE('',*,*,#240,.T.);
#297=ORIENTED_EDGE('',*,*,#241,.T.);
#298=ORIENTED_EDGE('',*,*,#236,.F.);
#299=ORIENTED_EDGE('',*,*,#242,.F.);
#300=ORIENTED_EDGE('',*,*,#243,.T.);
#301=ORIENTED_EDGE('',*,*,#244,.T.);
#302=ORIENTED_EDGE('',*,*,#240,.F.);
#303=ORIENTED_EDGE('',*,*,#245,.F.);
#304=ORIENTED_EDGE('',*,*,#246,.T.);
#305=ORIENTED_EDGE('',*,*,#247,.T.);
#306=ORIENTED_EDGE('',*,*,#243,.F.);
#307=ORIENTED_EDGE('',*,*,#248,.T.);
#308=ORIENTED_EDGE('',*,*,#249,.T.);
#309=ORIENTED_EDGE('',*,*,#250,.T.);
#310=ORIENTED_EDGE('',*,*,#246,.F.);
#311=ORIENTED_EDGE('',*,*,#251,.F.);
#312=ORIENTED_EDGE('',*,*,#234,.T.);
#313=ORIENTED_EDGE('',*,*,#252,.T.);
#314=ORIENTED_EDGE('',*,*,#249,.F.);
#315=ORIENTED_EDGE('',*,*,#253,.F.);
#316=ORIENTED_EDGE('',*,*,#254,.T.);
#317=ORIENTED_EDGE('',*,*,#255,.F.);
#318=ORIENTED_EDGE('',*,*,#256,.F.);
#319=ORIENTED_EDGE('',*,*,#257,.T.);
#320=ORIENTED_EDGE('',*,*,#256,.T.);
#321=ORIENTED_EDGE('',*,*,#258,.T.);
#322=ORIENTED_EDGE('',*,*,#232,.F.);
#323=ORIENTED_EDGE('',*,*,#259,.T.);
#324=ORIENTED_EDGE('',*,*,#238,.T.);
#325=ORIENTED_EDGE('',*,*,#260,.F.);
#326=ORIENTED_EDGE('',*,*,#261,.F.);
#327=ORIENTED_EDGE('',*,*,#262,.F.);
#328=ORIENTED_EDGE('',*,*,#261,.T.);
#329=ORIENTED_EDGE('',*,*,#263,.F.);
#330=ORIENTED_EDGE('',*,*,#264,.F.);
#331=ORIENTED_EDGE('',*,*,#265,.T.);
#332=ORIENTED_EDGE('',*,*,#264,.T.);
#333=ORIENTED_EDGE('',*,*,#266,.F.);
#334=ORIENTED_EDGE('',*,*,#267,.F.);
#335=ORIENTED_EDGE('',*,*,#268,.T.);
#336=ORIENTED_EDGE('',*,*,#267,.T.);
#337=ORIENTED_EDGE('',*,*,#269,.F.);
#338=ORIENTED_EDGE('',*,*,#270,.F.);
#339=ORIENTED_EDGE('',*,*,#271,.T.);
#340=ORIENTED_EDGE('',*,*,#270,.T.);
#341=ORIENTED_EDGE('',*,*,#272,.F.);
#342=ORIENTED_EDGE('',*,*,#273,.F.);
#343=ORIENTED_EDGE('',*,*,#274,.F.);
#344=ORIENTED_EDGE('',*,*,#273,.T.);
#345=ORIENTED_EDGE('',*,*,#275,.F.);
#346=ORIENTED_EDGE('',*,*,#276,.F.);
#347=ORIENTED_EDGE('',*,*,#277,.T.);
#348=ORIENTED_EDGE('',*,*,#276,.T.);
#349=ORIENTED_EDGE('',*,*,#278,.F.);
#350=ORIENTED_EDGE('',*,*,#254,.F.);
#351=ORIENTED_EDGE('',*,*,#278,.T.);
#352=ORIENTED_EDGE('',*,*,#275,.T.);
#353=ORIENTED_EDGE('',*,*,#272,.T.);
#354=ORIENTED_EDGE('',*,*,#269,.T.);
#355=ORIENTED_EDGE('',*,*,#266,.T.);
#356=ORIENTED_EDGE('',*,*,#263,.T.);
#357=ORIENTED_EDGE('',*,*,#260,.T.);
#358=ORIENTED_EDGE('',*,*,#237,.F.);
#359=ORIENTED_EDGE('',*,*,#241,.F.);
#360=ORIENTED_EDGE('',*,*,#244,.F.);
#361=ORIENTED_EDGE('',*,*,#247,.F.);
#362=ORIENTED_EDGE('',*,*,#250,.F.);
#363=ORIENTED_EDGE('',*,*,#252,.F.);
#364=ORIENTED_EDGE('',*,*,#233,.F.);
#365=ORIENTED_EDGE('',*,*,#258,.F.);
#366=ORIENTED_EDGE('',*,*,#255,.T.);
#367=ORIENTED_EDGE('',*,*,#227,.T.);
#368=ORIENTED_EDGE('',*,*,#230,.T.);
#369=ORIENTED_EDGE('',*,*,#277,.F.);
#370=ORIENTED_EDGE('',*,*,#253,.T.);
#371=ORIENTED_EDGE('',*,*,#257,.F.);
#372=ORIENTED_EDGE('',*,*,#231,.F.);
#373=ORIENTED_EDGE('',*,*,#251,.T.);
#374=ORIENTED_EDGE('',*,*,#248,.F.);
#375=ORIENTED_EDGE('',*,*,#245,.T.);
#376=ORIENTED_EDGE('',*,*,#242,.T.);
#377=ORIENTED_EDGE('',*,*,#239,.T.);
#378=ORIENTED_EDGE('',*,*,#235,.F.);
#379=ORIENTED_EDGE('',*,*,#259,.F.);
#380=ORIENTED_EDGE('',*,*,#262,.T.);
#381=ORIENTED_EDGE('',*,*,#265,.F.);
#382=ORIENTED_EDGE('',*,*,#268,.F.);
#383=ORIENTED_EDGE('',*,*,#271,.F.);
#384=ORIENTED_EDGE('',*,*,#274,.T.);
#385=ORIENTED_EDGE('',*,*,#225,.T.);
#386=ORIENTED_EDGE('',*,*,#228,.T.);
#387=CYLINDRICAL_SURFACE('',#424,1.15);
#388=CYLINDRICAL_SURFACE('',#427,1.15);
#389=ADVANCED_FACE('',(#41),#387,.F.);
#390=ADVANCED_FACE('',(#42),#388,.F.);
#391=ADVANCED_FACE('',(#43),#23,.F.);
#392=ADVANCED_FACE('',(#44),#24,.F.);
#393=ADVANCED_FACE('',(#45),#25,.F.);
#394=ADVANCED_FACE('',(#46),#26,.F.);
#395=ADVANCED_FACE('',(#47),#27,.F.);
#396=ADVANCED_FACE('',(#48),#28,.F.);
#397=ADVANCED_FACE('',(#49),#29,.F.);
#398=ADVANCED_FACE('',(#50),#30,.T.);
#399=ADVANCED_FACE('',(#51),#31,.T.);
#400=ADVANCED_FACE('',(#52),#32,.T.);
#401=ADVANCED_FACE('',(#53),#33,.T.);
#402=ADVANCED_FACE('',(#54),#34,.T.);
#403=ADVANCED_FACE('',(#55),#35,.T.);
#404=ADVANCED_FACE('',(#56),#36,.T.);
#405=ADVANCED_FACE('',(#57),#37,.T.);
#406=ADVANCED_FACE('',(#58),#38,.T.);
#407=ADVANCED_FACE('',(#59,#19,#20),#39,.T.);
#408=ADVANCED_FACE('',(#60,#21,#22),#40,.F.);
#409=CLOSED_SHELL('',(#389,#390,#391,#392,#393,#394,#395,#396,#397,#398,
#399,#400,#401,#402,#403,#404,#405,#406,#407,#408));
#410=DERIVED_UNIT_ELEMENT(#412,1.);
#411=DERIVED_UNIT_ELEMENT(#673,-3.);
#412=(
MASS_UNIT()
NAMED_UNIT(*)
SI_UNIT(.KILO.,.GRAM.)
);
#413=DERIVED_UNIT((#410,#411));
#414=MEASURE_REPRESENTATION_ITEM('density measure',
POSITIVE_RATIO_MEASURE(7850.),#413);
#415=PROPERTY_DEFINITION_REPRESENTATION(#420,#417);
#416=PROPERTY_DEFINITION_REPRESENTATION(#421,#418);
#417=REPRESENTATION('material name',(#419),#670);
#418=REPRESENTATION('density',(#414),#670);
#419=DESCRIPTIVE_REPRESENTATION_ITEM('Stahl','Stahl');
#420=PROPERTY_DEFINITION('material property','material name',#685);
#421=PROPERTY_DEFINITION('material property','density of part',#685);
#422=AXIS2_PLACEMENT_3D('',#553,#449,#450);
#423=AXIS2_PLACEMENT_3D('',#554,#451,#452);
#424=AXIS2_PLACEMENT_3D('',#555,#453,#454);
#425=AXIS2_PLACEMENT_3D('',#557,#455,#456);
#426=AXIS2_PLACEMENT_3D('',#560,#458,#459);
#427=AXIS2_PLACEMENT_3D('',#561,#460,#461);
#428=AXIS2_PLACEMENT_3D('',#563,#462,#463);
#429=AXIS2_PLACEMENT_3D('',#566,#465,#466);
#430=AXIS2_PLACEMENT_3D('',#567,#467,#468);
#431=AXIS2_PLACEMENT_3D('',#576,#473,#474);
#432=AXIS2_PLACEMENT_3D('',#585,#479,#480);
#433=AXIS2_PLACEMENT_3D('',#591,#484,#485);
#434=AXIS2_PLACEMENT_3D('',#597,#489,#490);
#435=AXIS2_PLACEMENT_3D('',#603,#494,#495);
#436=AXIS2_PLACEMENT_3D('',#609,#499,#500);
#437=AXIS2_PLACEMENT_3D('',#612,#503,#504);
#438=AXIS2_PLACEMENT_3D('',#621,#509,#510);
#439=AXIS2_PLACEMENT_3D('',#624,#513,#514);
#440=AXIS2_PLACEMENT_3D('',#630,#518,#519);
#441=AXIS2_PLACEMENT_3D('',#636,#523,#524);
#442=AXIS2_PLACEMENT_3D('',#642,#528,#529);
#443=AXIS2_PLACEMENT_3D('',#648,#533,#534);
#444=AXIS2_PLACEMENT_3D('',#654,#538,#539);
#445=AXIS2_PLACEMENT_3D('',#660,#543,#544);
#446=AXIS2_PLACEMENT_3D('',#663,#547,#548);
#447=AXIS2_PLACEMENT_3D('',#664,#549,#550);
#448=AXIS2_PLACEMENT_3D('',#665,#551,#552);
#449=DIRECTION('axis',(0.,0.,1.));
#450=DIRECTION('refdir',(1.,0.,0.));
#451=DIRECTION('axis',(0.,0.,1.));
#452=DIRECTION('refdir',(1.,0.,0.));
#453=DIRECTION('center_axis',(0.,0.,1.));
#454=DIRECTION('ref_axis',(1.,0.,0.));
#455=DIRECTION('center_axis',(0.,0.,1.));
#456=DIRECTION('ref_axis',(1.,0.,0.));
#457=DIRECTION('',(0.,0.,1.));
#458=DIRECTION('center_axis',(0.,0.,-1.));
#459=DIRECTION('ref_axis',(1.,0.,0.));
#460=DIRECTION('center_axis',(0.,0.,1.));
#461=DIRECTION('ref_axis',(1.,0.,0.));
#462=DIRECTION('center_axis',(0.,0.,1.));
#463=DIRECTION('ref_axis',(1.,0.,0.));
#464=DIRECTION('',(0.,0.,1.));
#465=DIRECTION('center_axis',(0.,0.,-1.));
#466=DIRECTION('ref_axis',(1.,0.,0.));
#467=DIRECTION('center_axis',(-1.,0.,0.));
#468=DIRECTION('ref_axis',(0.,-1.,0.));
#469=DIRECTION('',(0.,1.,0.));
#470=DIRECTION('',(0.,0.,1.));
#471=DIRECTION('',(0.,-1.,0.));
#472=DIRECTION('',(0.,0.,1.));
#473=DIRECTION('center_axis',(-1.,0.,0.));
#474=DIRECTION('ref_axis',(0.,-1.,0.));
#475=DIRECTION('',(0.,1.,0.));
#476=DIRECTION('',(0.,0.,1.));
#477=DIRECTION('',(0.,-1.,0.));
#478=DIRECTION('',(0.,0.,1.));
#479=DIRECTION('center_axis',(0.,1.,0.));
#480=DIRECTION('ref_axis',(-1.,0.,0.));
#481=DIRECTION('',(-1.,0.,0.));
#482=DIRECTION('',(0.,0.,1.));
#483=DIRECTION('',(-1.,0.,0.));
#484=DIRECTION('center_axis',(-1.,0.,0.));
#485=DIRECTION('ref_axis',(0.,-1.,0.));
#486=DIRECTION('',(0.,-1.,0.));
#487=DIRECTION('',(0.,0.,1.));
#488=DIRECTION('',(0.,-1.,0.));
#489=DIRECTION('center_axis',(0.,-1.,0.));
#490=DIRECTION('ref_axis',(1.,0.,0.));
#491=DIRECTION('',(1.,0.,0.));
#492=DIRECTION('',(0.,0.,1.));
#493=DIRECTION('',(1.,0.,0.));
#494=DIRECTION('center_axis',(-1.,0.,0.));
#495=DIRECTION('ref_axis',(0.,-1.,0.));
#496=DIRECTION('',(0.,1.,0.));
#497=DIRECTION('',(0.,0.,1.));
#498=DIRECTION('',(0.,-1.,0.));
#499=DIRECTION('center_axis',(-0.721988205115424,0.691905363235615,0.));
#500=DIRECTION('ref_axis',(-0.691905363235615,-0.721988205115424,0.));
#501=DIRECTION('',(-0.691905363235615,-0.721988205115424,0.));
#502=DIRECTION('',(-0.691905363235615,-0.721988205115424,0.));
#503=DIRECTION('center_axis',(-1.,0.,0.));
#504=DIRECTION('ref_axis',(0.,-1.,0.));
#505=DIRECTION('',(0.,1.,0.));
#506=DIRECTION('',(0.,0.,1.));
#507=DIRECTION('',(0.,-1.,0.));
#508=DIRECTION('',(0.,0.,1.));
#509=DIRECTION('center_axis',(0.,1.,0.));
#510=DIRECTION('ref_axis',(-1.,0.,0.));
#511=DIRECTION('',(-1.,0.,0.));
#512=DIRECTION('',(1.,0.,0.));
#513=DIRECTION('center_axis',(0.,-1.,0.));
#514=DIRECTION('ref_axis',(1.,0.,0.));
#515=DIRECTION('',(1.,0.,0.));
#516=DIRECTION('',(1.,0.,0.));
#517=DIRECTION('',(0.,0.,1.));
#518=DIRECTION('center_axis',(-1.,0.,0.));
#519=DIRECTION('ref_axis',(0.,-1.,0.));
#520=DIRECTION('',(0.,1.,0.));
#521=DIRECTION('',(0.,-1.,0.));
#522=DIRECTION('',(0.,0.,1.));
#523=DIRECTION('center_axis',(0.,-1.,0.));
#524=DIRECTION('ref_axis',(1.,0.,0.));
#525=DIRECTION('',(1.,0.,0.));
#526=DIRECTION('',(1.,0.,0.));
#527=DIRECTION('',(0.,0.,1.));
#528=DIRECTION('center_axis',(-1.,0.,0.));
#529=DIRECTION('ref_axis',(0.,-1.,0.));
#530=DIRECTION('',(0.,-1.,0.));
#531=DIRECTION('',(0.,-1.,0.));
#532=DIRECTION('',(0.,0.,1.));
#533=DIRECTION('center_axis',(0.,1.,0.));
#534=DIRECTION('ref_axis',(-1.,0.,0.));
#535=DIRECTION('',(-1.,0.,0.));
#536=DIRECTION('',(-1.,0.,0.));
#537=DIRECTION('',(0.,0.,1.));
#538=DIRECTION('center_axis',(-1.,0.,0.));
#539=DIRECTION('ref_axis',(0.,-1.,0.));
#540=DIRECTION('',(0.,1.,0.));
#541=DIRECTION('',(0.,-1.,0.));
#542=DIRECTION('',(0.,0.,1.));
#543=DIRECTION('center_axis',(-0.721988205115424,-0.691905363235615,0.));
#544=DIRECTION('ref_axis',(0.691905363235615,-0.721988205115424,0.));
#545=DIRECTION('',(0.691905363235615,-0.721988205115424,0.));
#546=DIRECTION('',(0.691905363235615,-0.721988205115424,0.));
#547=DIRECTION('center_axis',(0.,0.,1.));
#548=DIRECTION('ref_axis',(1.,0.,0.));
#549=DIRECTION('center_axis',(0.,0.,1.));
#550=DIRECTION('ref_axis',(1.,0.,0.));
#551=DIRECTION('',(0.,0.,1.));
#552=DIRECTION('',(1.,0.,0.));
#553=CARTESIAN_POINT('',(0.,0.,0.));
#554=CARTESIAN_POINT('',(0.,0.,0.));
#555=CARTESIAN_POINT('Origin',(5.32907051820075E-14,-50.25,0.));
#556=CARTESIAN_POINT('',(-1.14999999999995,-50.25,0.));
#557=CARTESIAN_POINT('Origin',(5.32907051820075E-14,-50.25,0.));
#558=CARTESIAN_POINT('',(-1.14999999999995,-50.25,1.2));
#559=CARTESIAN_POINT('',(-1.14999999999995,-50.25,0.));
#560=CARTESIAN_POINT('Origin',(5.32907051820075E-14,-50.25,1.2));
#561=CARTESIAN_POINT('Origin',(0.,2.15,0.));
#562=CARTESIAN_POINT('',(-1.15,2.15,0.));
#563=CARTESIAN_POINT('Origin',(0.,2.15,0.));
#564=CARTESIAN_POINT('',(-1.15,2.15,1.2));
#565=CARTESIAN_POINT('',(-1.15,2.15,0.));
#566=CARTESIAN_POINT('Origin',(0.,2.15,1.2));
#567=CARTESIAN_POINT('Origin',(21.5,61.,0.));
#568=CARTESIAN_POINT('',(21.5,29.15,0.));
#569=CARTESIAN_POINT('',(21.5,61.,0.));
#570=CARTESIAN_POINT('',(21.5,29.15,0.));
#571=CARTESIAN_POINT('',(21.5,61.,1.2));
#572=CARTESIAN_POINT('',(21.5,61.,0.));
#573=CARTESIAN_POINT('',(21.5,29.15,1.2));
#574=CARTESIAN_POINT('',(21.5,29.15,1.2));
#575=CARTESIAN_POINT('',(21.5,29.15,0.));
#576=CARTESIAN_POINT('Origin',(21.5,-44.,0.));
#577=CARTESIAN_POINT('',(21.5,-55.,0.));
#578=CARTESIAN_POINT('',(21.5,-44.,0.));
#579=CARTESIAN_POINT('',(21.5,-55.,0.));
#580=CARTESIAN_POINT('',(21.5,-44.,1.2));
#581=CARTESIAN_POINT('',(21.5,-44.,0.));
#582=CARTESIAN_POINT('',(21.5,-55.,1.2));
#583=CARTESIAN_POINT('',(21.5,-55.,1.2));
#584=CARTESIAN_POINT('',(21.5,-55.,0.));
#585=CARTESIAN_POINT('Origin',(27.5,-44.,0.));
#586=CARTESIAN_POINT('',(27.5,-44.,0.));
#587=CARTESIAN_POINT('',(27.5,-44.,0.));
#588=CARTESIAN_POINT('',(27.5,-44.,1.2));
#589=CARTESIAN_POINT('',(27.5,-44.,0.));
#590=CARTESIAN_POINT('',(27.5,-44.,1.2));
#591=CARTESIAN_POINT('Origin',(27.5,0.999999999999988,0.));
#592=CARTESIAN_POINT('',(27.5,0.999999999999988,0.));
#593=CARTESIAN_POINT('',(27.5,0.999999999999988,0.));
#594=CARTESIAN_POINT('',(27.5,0.999999999999988,1.2));
#595=CARTESIAN_POINT('',(27.5,0.999999999999988,0.));
#596=CARTESIAN_POINT('',(27.5,0.999999999999988,1.2));
#597=CARTESIAN_POINT('Origin',(9.99999999999995,0.999999999999988,0.));
#598=CARTESIAN_POINT('',(9.99999999999995,0.999999999999988,0.));
#599=CARTESIAN_POINT('',(9.99999999999995,0.999999999999988,0.));
#600=CARTESIAN_POINT('',(9.99999999999995,0.999999999999988,1.2));
#601=CARTESIAN_POINT('',(9.99999999999995,0.999999999999988,0.));
#602=CARTESIAN_POINT('',(9.99999999999995,0.999999999999988,1.2));
#603=CARTESIAN_POINT('Origin',(9.99999999999995,17.15,0.));
#604=CARTESIAN_POINT('',(9.99999999999995,17.15,0.));
#605=CARTESIAN_POINT('',(9.99999999999995,0.999999999999988,0.));
#606=CARTESIAN_POINT('',(9.99999999999995,17.15,1.2));
#607=CARTESIAN_POINT('',(9.99999999999995,17.15,0.));
#608=CARTESIAN_POINT('',(9.99999999999995,0.999999999999988,1.2));
#609=CARTESIAN_POINT('Origin',(21.5,29.15,0.));
#610=CARTESIAN_POINT('',(21.5,29.15,0.));
#611=CARTESIAN_POINT('',(21.5,29.15,1.2));
#612=CARTESIAN_POINT('Origin',(-21.5,61.,0.));
#613=CARTESIAN_POINT('',(-21.5,29.15,0.));
#614=CARTESIAN_POINT('',(-21.5,61.,0.));
#615=CARTESIAN_POINT('',(-21.5,29.15,0.));
#616=CARTESIAN_POINT('',(-21.5,29.15,1.2));
#617=CARTESIAN_POINT('',(-21.5,29.15,0.));
#618=CARTESIAN_POINT('',(-21.5,61.,1.2));
#619=CARTESIAN_POINT('',(-21.5,29.15,1.2));
#620=CARTESIAN_POINT('',(-21.5,61.,0.));
#621=CARTESIAN_POINT('Origin',(0.,61.,0.));
#622=CARTESIAN_POINT('',(21.5,61.,0.));
#623=CARTESIAN_POINT('',(21.5,61.,1.2));
#624=CARTESIAN_POINT('Origin',(-21.5,-55.,0.));
#625=CARTESIAN_POINT('',(-21.5,-55.,0.));
#626=CARTESIAN_POINT('',(-21.5,-55.,0.));
#627=CARTESIAN_POINT('',(-21.5,-55.,1.2));
#628=CARTESIAN_POINT('',(-21.5,-55.,1.2));
#629=CARTESIAN_POINT('',(-21.5,-55.,0.));
#630=CARTESIAN_POINT('Origin',(-21.5,-44.,0.));
#631=CARTESIAN_POINT('',(-21.5,-44.,0.));
#632=CARTESIAN_POINT('',(-21.5,-55.,0.));
#633=CARTESIAN_POINT('',(-21.5,-44.,1.2));
#634=CARTESIAN_POINT('',(-21.5,-55.,1.2));
#635=CARTESIAN_POINT('',(-21.5,-44.,0.));
#636=CARTESIAN_POINT('Origin',(-27.5,-44.,0.));
#637=CARTESIAN_POINT('',(-27.5,-44.,0.));
#638=CARTESIAN_POINT('',(-27.5,-44.,0.));
#639=CARTESIAN_POINT('',(-27.5,-44.,1.2));
#640=CARTESIAN_POINT('',(-27.5,-44.,1.2));
#641=CARTESIAN_POINT('',(-27.5,-44.,0.));
#642=CARTESIAN_POINT('Origin',(-27.5,0.999999999999988,0.));
#643=CARTESIAN_POINT('',(-27.5,0.999999999999988,0.));
#644=CARTESIAN_POINT('',(-27.5,0.999999999999988,0.));
#645=CARTESIAN_POINT('',(-27.5,0.999999999999988,1.2));
#646=CARTESIAN_POINT('',(-27.5,0.999999999999988,1.2));
#647=CARTESIAN_POINT('',(-27.5,0.999999999999988,0.));
#648=CARTESIAN_POINT('Origin',(-9.99999999999995,0.999999999999988,0.));
#649=CARTESIAN_POINT('',(-9.99999999999995,0.999999999999988,0.));
#650=CARTESIAN_POINT('',(-9.99999999999995,0.999999999999988,0.));
#651=CARTESIAN_POINT('',(-9.99999999999995,0.999999999999988,1.2));
#652=CARTESIAN_POINT('',(-9.99999999999995,0.999999999999988,1.2));
#653=CARTESIAN_POINT('',(-9.99999999999995,0.999999999999988,0.));
#654=CARTESIAN_POINT('Origin',(-9.99999999999995,17.15,0.));
#655=CARTESIAN_POINT('',(-9.99999999999995,17.15,0.));
#656=CARTESIAN_POINT('',(-9.99999999999995,0.999999999999988,0.));
#657=CARTESIAN_POINT('',(-9.99999999999995,17.15,1.2));
#658=CARTESIAN_POINT('',(-9.99999999999995,0.999999999999988,1.2));
#659=CARTESIAN_POINT('',(-9.99999999999995,17.15,0.));
#660=CARTESIAN_POINT('Origin',(-21.5,29.15,0.));
#661=CARTESIAN_POINT('',(-21.5,29.15,0.));
#662=CARTESIAN_POINT('',(-21.5,29.15,1.2));
#663=CARTESIAN_POINT('Origin',(-13.7499999999999,2.99999999999999,1.2));
#664=CARTESIAN_POINT('Origin',(-13.7499999999999,2.99999999999999,0.));
#665=CARTESIAN_POINT('',(0.,0.,0.));
#666=UNCERTAINTY_MEASURE_WITH_UNIT(LENGTH_MEASURE(0.01),#672,
'DISTANCE_ACCURACY_VALUE',
'Maximum model space distance between geometric entities at asserted c
onnectivities');
#667=UNCERTAINTY_MEASURE_WITH_UNIT(LENGTH_MEASURE(0.01),#672,
'DISTANCE_ACCURACY_VALUE',
'Maximum model space distance between geometric entities at asserted c
onnectivities');
#668=UNCERTAINTY_MEASURE_WITH_UNIT(LENGTH_MEASURE(0.01),#672,
'DISTANCE_ACCURACY_VALUE',
'Maximum model space distance between geometric entities at asserted c
onnectivities');
#669=(
GEOMETRIC_REPRESENTATION_CONTEXT(3)
GLOBAL_UNCERTAINTY_ASSIGNED_CONTEXT((#666))
GLOBAL_UNIT_ASSIGNED_CONTEXT((#672,#674,#675))
REPRESENTATION_CONTEXT('','3D')
);
#670=(
GEOMETRIC_REPRESENTATION_CONTEXT(3)
GLOBAL_UNCERTAINTY_ASSIGNED_CONTEXT((#667))
GLOBAL_UNIT_ASSIGNED_CONTEXT((#672,#674,#675))
REPRESENTATION_CONTEXT('','3D')
);
#671=(
GEOMETRIC_REPRESENTATION_CONTEXT(3)
GLOBAL_UNCERTAINTY_ASSIGNED_CONTEXT((#668))
GLOBAL_UNIT_ASSIGNED_CONTEXT((#672,#674,#675))
REPRESENTATION_CONTEXT('','3D')
);
#672=(
LENGTH_UNIT()
NAMED_UNIT(*)
SI_UNIT(.MILLI.,.METRE.)
);
#673=(
LENGTH_UNIT()
NAMED_UNIT(*)
SI_UNIT($,.METRE.)
);
#674=(
NAMED_UNIT(*)
PLANE_ANGLE_UNIT()
SI_UNIT($,.RADIAN.)
);
#675=(
NAMED_UNIT(*)
SI_UNIT($,.STERADIAN.)
SOLID_ANGLE_UNIT()
);
#676=SHAPE_DEFINITION_REPRESENTATION(#678,#681);
#677=SHAPE_DEFINITION_REPRESENTATION(#679,#682);
#678=PRODUCT_DEFINITION_SHAPE('',$,#684);
#679=PRODUCT_DEFINITION_SHAPE('',$,#685);
#680=PRODUCT_DEFINITION_SHAPE($,$,#14);
#681=SHAPE_REPRESENTATION('',(#422,#448),#669);
#682=SHAPE_REPRESENTATION('',(#423),#670);
#683=PRODUCT_DEFINITION_CONTEXT('part definition',#691,'design');
#684=PRODUCT_DEFINITION('Colebot','Colebot v21',#686,#683);
#685=PRODUCT_DEFINITION('MaxFootprint','MaxFootprint',#687,#683);
#686=PRODUCT_DEFINITION_FORMATION('',$,#693);
#687=PRODUCT_DEFINITION_FORMATION('',$,#694);
#688=PRODUCT_RELATED_PRODUCT_CATEGORY('Colebot v21','Colebot v21',(#693));
#689=PRODUCT_RELATED_PRODUCT_CATEGORY('MaxFootprint','MaxFootprint',(#694));
#690=APPLICATION_PROTOCOL_DEFINITION('international standard',
'automotive_design',2009,#691);
#691=APPLICATION_CONTEXT(
'Core Data for Automotive Mechanical Design Process');
#692=PRODUCT_CONTEXT('part definition',#691,'mechanical');
#693=PRODUCT('Colebot','Colebot',$,(#692));
#694=PRODUCT('MaxFootprint','MaxFootprint',$,(#692));
#695=PRESENTATION_STYLE_ASSIGNMENT((#697));
#696=PRESENTATION_STYLE_ASSIGNMENT((#698));
#697=SURFACE_STYLE_USAGE(.BOTH.,#699);
#698=SURFACE_STYLE_USAGE(.BOTH.,#700);
#699=SURFACE_SIDE_STYLE('',(#701));
#700=SURFACE_SIDE_STYLE('',(#702));
#701=SURFACE_STYLE_FILL_AREA(#703);
#702=SURFACE_STYLE_FILL_AREA(#704);
#703=FILL_AREA_STYLE('Stahl - satiniert',(#705));
#704=FILL_AREA_STYLE('Luft',(#706));
#705=FILL_AREA_STYLE_COLOUR('Stahl - satiniert',#707);
#706=FILL_AREA_STYLE_COLOUR('Luft',#708);
#707=COLOUR_RGB('Stahl - satiniert',0.627450980392157,0.627450980392157,
0.627450980392157);
#708=COLOUR_RGB('Luft',1.,1.,1.);
ENDSEC;
END-ISO-10303-21;
